999
kmltools
  0
SECTION
  2
HEADER
  9
$ACADVER
  1
AC1006
  9
$LUNITS
 70
6
  9
$INSBASE
 10
0
 20
0
 30
0
  9
$EXTMIN
 10
0
 20
0
  9
$EXTMAX
 10
2828
 20
1752
  9
$LIMMIN
 10
0
 20
0
  9
$LIMMAX
 10
2828
 20
1752
  0
ENDSEC
  0
SECTION
  2
TABLES
  0
TABLE
  2
LTYPE
 70
1
  0
LTYPE
  2
CONTINUOUS
  70
64
  3
Solid line
 72
65
 73
0
 40
0
  0
ENDTAB
  0
TABLE
  2
LAYER
  0
LAYER
  2
0
  0
ENDTAB
  0
TABLE
  2
STYLE
 70
0
  0
ENDTAB
  0
ENDSEC
  0
SECTION
  2
BLOCKS
  0
ENDSEC
  0
SECTION
  2
ENTITIES
  0
LINE
  8
0
 62
0
 10
0
 20
1567
 11
2143
 21
1752
  0
LINE
  8
0
 62
0
 10
2143
 20
1752
 11
2175
 21
1443
  0
LINE
  8
0
 62
0
 10
2175
 20
1443
 11
2203
 21
1435
  0
LINE
  8
0
 62
0
 10
2203
 20
1435
 11
2203
 21
1435
  0
LINE
  8
0
 62
0
 10
2203
 20
1435
 11
2227
 21
1423
  0
LINE
  8
0
 62
0
 10
2227
 20
1423
 11
2227
 21
1423
  0
LINE
  8
0
 62
0
 10
2227
 20
1423
 11
2243
 21
1399
  0
LINE
  8
0
 62
0
 10
2243
 20
1399
 11
2243
 21
1399
  0
LINE
  8
0
 62
0
 10
2243
 20
1399
 11
2251
 21
1291
  0
LINE
  8
0
 62
0
 10
2251
 20
1291
 11
2251
 21
1291
  0
LINE
  8
0
 62
0
 10
2251
 20
1291
 11
2347
 21
1295
  0
LINE
  8
0
 62
0
 10
2347
 20
1295
 11
2359
 21
1143
  0
LINE
  8
0
 62
0
 10
2359
 20
1143
 11
2416
 21
1143
  0
LINE
  8
0
 62
0
 10
2416
 20
1143
 11
2428
 21
1134
  0
LINE
  8
0
 62
0
 10
2428
 20
1134
 11
2428
 21
1134
  0
LINE
  8
0
 62
0
 10
2428
 20
1134
 11
2440
 21
978
  0
LINE
  8
0
 62
0
 10
2440
 20
978
 11
2568
 21
990
  0
LINE
  8
0
 62
0
 10
2568
 20
990
 11
2584
 21
826
  0
LINE
  8
0
 62
0
 10
2584
 20
826
 11
2704
 21
834
  0
LINE
  8
0
 62
0
 10
2704
 20
834
 11
2704
 21
834
  0
LINE
  8
0
 62
0
 10
2704
 20
834
 11
2716
 21
826
  0
LINE
  8
0
 62
0
 10
2716
 20
826
 11
2736
 21
525
  0
LINE
  8
0
 62
0
 10
2736
 20
525
 11
2792
 21
533
  0
LINE
  8
0
 62
0
 10
2792
 20
533
 11
2800
 21
525
  0
LINE
  8
0
 62
0
 10
2800
 20
525
 11
2828
 21
228
  0
LINE
  8
0
 62
0
 10
2828
 20
228
 11
136
 21
0
  0
LINE
  8
0
 62
0
 10
136
 20
0
 11
0
 21
1567
  0
ENDSEC
  0
EOF